999
DXF created from QGIS
  0
SECTION
  2
HEADER
  9
$ACADVER
  1
AC1015
  9
$EXTMIN
 10
-282.62032112692088504
 20
-262.50000009499490261
  9
$EXTMAX
 10
282.62032058430907
 20
262.49999990500509739
  9
$LTSCALE
 40
1.0
  9
$PDMODE
 70
    33
  9
$PDSIZE
 40
     1
  9
$PSLTSCALE
 70
     0
  9
$HANDSEED
  5
9999999
  9
$DWGCODEPAGE
  3
ANSI_1252
  0
ENDSEC
  0
SECTION
  2
TABLES
  0
TABLE
  2
LTYPE
  5
64
100
AcDbSymbolTable
 70
     5
  0
LTYPE
  5
65
100
AcDbSymbolTableRecord
100
AcDbLinetypeTableRecord
  2
ByLayer
 70
    64
  3
Defaultstyle
 72
    65
 73
     0
 40
0.0
  0
LTYPE
  5
66
100
AcDbSymbolTableRecord
100
AcDbLinetypeTableRecord
  2
ByBlock
 70
    64
  3
Defaultstyle
 72
    65
 73
     0
 40
0.0
  0
LTYPE
  5
67
100
AcDbSymbolTableRecord
100
AcDbLinetypeTableRecord
  2
CONTINUOUS
 70
    64
  3
Defaultstyle
 72
    65
 73
     0
 40
0.0
  0
LTYPE
  5
68
100
AcDbSymbolTableRecord
100
AcDbLinetypeTableRecord
  2
DASH
 70
    64
  3

 72
    65
 73
     2
 40
1.30000000000000004
 49
1.0
 74
     0
 49
-0.29999999999999999
 74
     0
  0
LTYPE
  5
69
100
AcDbSymbolTableRecord
100
AcDbLinetypeTableRecord
  2
DOT
 70
    64
  3

 72
    65
 73
     2
 40
0.59999999999999998
 49
0.29999999999999999
 74
     0
 49
-0.29999999999999999
 74
     0
  0
LTYPE
  5
6a
100
AcDbSymbolTableRecord
100
AcDbLinetypeTableRecord
  2
DASHDOT
 70
    64
  3

 72
    65
 73
     4
 40
1.90000000000000013
 49
1.0
 74
     0
 49
-0.29999999999999999
 74
     0
 49
0.29999999999999999
 74
     0
 49
-0.29999999999999999
 74
     0
  0
LTYPE
  5
6b
100
AcDbSymbolTableRecord
100
AcDbLinetypeTableRecord
  2
DASHDOTDOT
 70
    64
  3

 72
    65
 73
     6
 40
2.5
 49
1.0
 74
     0
 49
-0.29999999999999999
 74
     0
 49
0.29999999999999999
 74
     0
 49
-0.29999999999999999
 74
     0
 49
0.29999999999999999
 74
     0
 49
-0.29999999999999999
 74
     0
  0
ENDTAB
  0
TABLE
  2
BLOCK_RECORD
  5
6c
100
AcDbSymbolTable
 70
     0
  0
BLOCK_RECORD
  5
6d
100
AcDbSymbolTableRecord
100
AcDbBlockTableRecord
  2
*Model_Space
  0
BLOCK_RECORD
  5
6e
100
AcDbSymbolTableRecord
100
AcDbBlockTableRecord
  2
*Paper_Space
  0
BLOCK_RECORD
  5
6f
100
AcDbSymbolTableRecord
100
AcDbBlockTableRecord
  2
*Paper_Space0
  0
ENDTAB
  0
TABLE
  2
APPID
  5
70
100
AcDbSymbolTable
 70
     1
  0
APPID
  5
71
100
AcDbSymbolTableRecord
100
AcDbRegAppTableRecord
  2
ACAD
 70
     0
  0
ENDTAB
  0
TABLE
  2
VIEW
  5
72
100
AcDbSymbolTable
 70
     0
  0
ENDTAB
  0
TABLE
  2
UCS
  5
73
100
AcDbSymbolTable
 70
     0
  0
ENDTAB
  0
TABLE
  2
VPORT
  5
74
100
AcDbSymbolTable
  0
VPORT
  5
75
100
AcDbSymbolTableRecord
100
AcDbViewportTableRecord
  2
*ACTIVE
 70
     0
 10
0.0
 20
0.0
 11
1.0
 21
1.0
 12
0.0
 22
0.0
 13
0.0
 23
0.0
 14
1.0
 24
1.0
 15
1.0
 25
1.0
 16
0.0
 26
0.0
 36
1.0
 17
-0.00000027130590752
 27
-0.00000009499490261
 40
525.0
 41
1.07664884135472372
 42
50.0
 43
0.0
 44
0.0
 50
0.0
 51
0.0
 71
     0
 72
   100
 73
     1
 74
     1
 75
     0
 76
     0
 77
     0
 78
     0
281
     0
 65
     1
110
0.0
120
0.0
111
1.0
121
0.0
112
0.0
122
1.0
 79
     0
146
0.0
 70
     0
  0
ENDTAB
  0
TABLE
  2
DIMSTYLE
  5
76
100
AcDbSymbolTable
100
AcDbDimStyleTable
 70
     0
  0
ENDTAB
  0
TABLE
  2
LAYER
  5
77
100
AcDbSymbolTable
 70
     2
  0
LAYER
  5
78
100
AcDbSymbolTableRecord
100
AcDbLayerTableRecord
  2
0
 70
    64
 62
     1
  6
CONTINUOUS
390
f
  0
LAYER
  5
79
100
AcDbSymbolTableRecord
100
AcDbLayerTableRecord
  2
CM_Street_Names_translate
 70
    64
 62
     1
  6
CONTINUOUS
390
f
  0
ENDTAB
  0
TABLE
  2
STYLE
  5
7a
100
AcDbSymbolTable
 70
     1
  0
STYLE
  5
7b
100
AcDbSymbolTableRecord
100
AcDbTextStyleTableRecord
  2
STANDARD
 70
    64
 40
0.0
 41
1.0
 50
0.0
 71
     0
 42
5.0
  3
romans.shx
  4

  0
ENDTAB
  0
ENDSEC
  0
SECTION
  2
BLOCKS
  0
BLOCK
  5
7c
330
6d
100
AcDbEntity
  8
0
100
AcDbBlockBegin
  2
*Model_Space
 70
     0
 10
0.0
 20
0.0
  3
*Model_Space
  1

  0
ENDBLK
  5
7d
100
AcDbEntity
  8
0
100
AcDbBlockEnd
  0
BLOCK
  5
7e
330
6e
100
AcDbEntity
  8
0
100
AcDbBlockBegin
  2
*Paper_Space
 70
     0
 10
0.0
 20
0.0
  3
*Paper_Space
  1

  0
ENDBLK
  5
7f
100
AcDbEntity
  8
0
100
AcDbBlockEnd
  0
BLOCK
  5
80
330
6f
100
AcDbEntity
  8
0
100
AcDbBlockBegin
  2
*Paper_Space0
 70
     0
 10
0.0
 20
0.0
  3
*Paper_Space0
  1

  0
ENDBLK
  5
81
100
AcDbEntity
  8
0
100
AcDbBlockEnd
  0
ENDSEC
  0
SECTION
  2
ENTITIES
  0
LWPOLYLINE
  5
82
  8
CM_Street_Names_translate
100
AcDbEntity
100
AcDbPolyline
  6
CONTINUOUS
420
15066597
 90
     2
 70
     0
 43
0.14999999999999999
 10
-56.74412141786888242
 20
-250.00000009499490261
 10
-57.41750681051053107
 20
-224.77209326066076756
  0
LWPOLYLINE
  5
83
  8
CM_Street_Names_translate
100
AcDbEntity
100
AcDbPolyline
  6
CONTINUOUS
420
15066597
 90
     3
 70
     0
 43
0.14999999999999999
 10
-124.15735320467501879
 20
-250.00000009499490261
 10
-117.36391320417169482
 20
-247.14315227046608925
 10
-57.41750681051053107
 20
-224.77209326066076756
  0
LWPOLYLINE
  5
84
  8
CM_Street_Names_translate
100
AcDbEntity
100
AcDbPolyline
  6
CONTINUOUS
420
15066597
 90
     2
 70
     0
 43
0.14999999999999999
 10
-60.39608758426038548
 20
-143.04014020599424839
 10
-57.41750681051053107
 20
-224.77209326066076756
  0
LWPOLYLINE
  5
85
  8
CM_Street_Names_translate
100
AcDbEntity
100
AcDbPolyline
  6
CONTINUOUS
420
15066597
 90
     8
 70
     0
 43
0.14999999999999999
 10
-60.39608758426038548
 20
-143.04014020599424839
 10
-70.18915178603492677
 20
-145.90592797659337521
 10
-100.53497703740140423
 20
-156.03109071683138609
 10
-222.87655447045108303
 20
-206.44758632220327854
 10
-229.33702335128327832
 20
-207.95892599411308765
 10
-236.89901674049906433
 20
-209.0533554470166564
 10
-242.7300449293688871
 20
-209.06898545473814011
 10
-250.00000027130590752
 20
-207.87432138714939356
  0
LWPOLYLINE
  5
86
  8
CM_Street_Names_translate
100
AcDbEntity
100
AcDbPolyline
  6
CONTINUOUS
420
15066597
 90
     3
 70
     0
 43
0.14999999999999999
 10
-243.22820176754612476
 20
-128.1173353549093008
 10
-247.25467364169890061
 20
-140.3200447466224432
 10
-250.00000027130590752
 20
-148.92477301880717278
  0
LWPOLYLINE
  5
87
  8
CM_Street_Names_translate
100
AcDbEntity
100
AcDbPolyline
  6
CONTINUOUS
420
15066597
 90
     7
 70
     0
 43
0.14999999999999999
 10
-250.00000027130590752
 20
-125.26550522819161415
 10
-241.33357588551007211
 20
-100.47885829862207174
 10
-228.7686960946302861
 20
-73.28704584762454033
 10
-201.1857447458896786
 20
-26.68092416506260633
 10
-192.15831815719138831
 20
-11.12134554795920849
 10
-184.03299582283943892
 20
2.68110497109591961
 10
-174.59487247606739402
 20
18.06400281377136707
  0
LWPOLYLINE
  5
88
  8
CM_Street_Names_translate
100
AcDbEntity
100
AcDbPolyline
  6
CONTINUOUS
420
15066597
 90
    11
 70
     0
 43
0.14999999999999999
 10
-60.39608758426038548
 20
-143.04014020599424839
 10
-50.05414349044440314
 20
-141.59156226459890604
 10
-34.89601824380224571
 20
-139.95939272828400135
 10
-19.70986325317062438
 20
-139.91882580611854792
 10
-15.32390523713547736
 20
-139.73395910020917654
 10
-11.32608015439473093
 20
-139.5658240644261241
 10
-8.10481247631832957
 20
-139.43037832248955965
 10
-7.33113670500461012
 20
-139.33417847752571106
 10
-3.34413923684041947
 20
-138.83622009120881557
 10
8.34174838394392282
 20
-137.37683295644819736
 10
16.87337149726226926
 20
-134.06794470362365246
  0
LWPOLYLINE
  5
89
  8
CM_Street_Names_translate
100
AcDbEntity
100
AcDbPolyline
  6
CONTINUOUS
420
15066597
 90
     2
 70
     0
 43
0.14999999999999999
 10
-60.39608758426038548
 20
-143.04014020599424839
 10
-62.6362407241249457
 20
-59.02295862324535847
  0
LWPOLYLINE
  5
8a
  8
CM_Street_Names_translate
100
AcDbEntity
100
AcDbPolyline
  6
CONTINUOUS
420
15066597
 90
     3
 70
     0
 43
0.14999999999999999
 10
-243.22820176754612476
 20
-128.1173353549093008
 10
-242.8949973511043936
 20
-127.99019370228052139
 10
-62.6362407241249457
 20
-59.02295862324535847
  0
LWPOLYLINE
  5
8b
  8
CM_Street_Names_translate
100
AcDbEntity
100
AcDbPolyline
  6
CONTINUOUS
420
15066597
 90
     5
 70
     0
 43
0.14999999999999999
 10
-190.3292611027136445
 20
-23.19151920452713966
 10
-209.09971828327979892
 20
-52.80204025562852621
 10
-223.94283501320751384
 20
-78.72247586026787758
 10
-235.9914963252376765
 20
-106.18558258563280106
 10
-243.22820176754612476
 20
-128.1173353549093008
  0
LWPOLYLINE
  5
8c
  8
CM_Street_Names_translate
100
AcDbEntity
100
AcDbPolyline
  6
CONTINUOUS
420
15066597
 90
     3
 70
     0
 43
0.14999999999999999
 10
-62.6362407241249457
 20
-59.02295862324535847
 10
-63.80282319523394108
 20
-29.36934900376945734
 10
-83.73731592856347561
 20
16.96344381757080555
  0
LWPOLYLINE
  5
8d
  8
CM_Street_Names_translate
100
AcDbEntity
100
AcDbPolyline
  6
CONTINUOUS
420
15066597
 90
     7
 70
     0
 43
0.14999999999999999
 10
-119.95575648581143469
 20
95.32474569790065289
 10
-130.06516107253264636
 20
73.47156443074345589
 10
-144.57633410999551415
 20
48.56927839946001768
 10
-174.74100122624076903
 20
1.30714171100407839
 10
-174.81616247398778796
 20
1.1894465871155262
 10
-183.37266838096547872
 20
-12.21783157344907522
 10
-190.3292611027136445
 20
-23.19151920452713966
  0
LWPOLYLINE
  5
8e
  8
CM_Street_Names_translate
100
AcDbEntity
100
AcDbPolyline
  6
CONTINUOUS
420
15066597
 90
     2
 70
     0
 43
0.14999999999999999
 10
-160.01640668977051973
 20
-15.17280115000903606
 10
-83.73731592856347561
 20
16.96344381757080555
  0
LWPOLYLINE
  5
8f
  8
CM_Street_Names_translate
100
AcDbEntity
100
AcDbPolyline
  6
CONTINUOUS
420
15066597
 90
     2
 70
     0
 43
0.14999999999999999
 10
-110.87913063843734562
 20
87.77374068554490805
 10
-83.73731592856347561
 20
16.96344381757080555
  0
LWPOLYLINE
  5
90
  8
CM_Street_Names_translate
100
AcDbEntity
100
AcDbPolyline
  6
CONTINUOUS
420
15066597
 90
     2
 70
     0
 43
0.14999999999999999
 10
-217.87985611974727362
 20
46.41889559105038643
 10
-174.59487247606739402
 20
18.06400281377136707
  0
LWPOLYLINE
  5
91
  8
CM_Street_Names_translate
100
AcDbEntity
100
AcDbPolyline
  6
CONTINUOUS
420
15066597
 90
     5
 70
     0
 43
0.14999999999999999
 10
-174.59487247606739402
 20
18.06400281377136707
 10
-161.62616516638081521
 20
38.26146497204899788
 10
-135.0593818019842729
 20
83.40562383737415075
 10
-128.31533596769440919
 20
96.82862016558647156
 10
-126.1103932122932747
 20
102.47191416937857866
  0
LWPOLYLINE
  5
92
  8
CM_Street_Names_translate
100
AcDbEntity
100
AcDbPolyline
  6
CONTINUOUS
420
15066597
 90
     2
 70
     0
 43
0.14999999999999999
 10
-126.1103932122932747
 20
102.47191416937857866
 10
-119.95575648581143469
 20
95.32474569790065289
  0
LWPOLYLINE
  5
93
  8
CM_Street_Names_translate
100
AcDbEntity
100
AcDbPolyline
  6
CONTINUOUS
420
15066597
 90
     6
 70
     0
 43
0.14999999999999999
 10
-90.26920054049696773
 20
187.9486500546336174
 10
-97.39831909467466176
 20
165.58144157845526934
 10
-102.89020420017186552
 20
147.82126063853502274
 10
-113.08737012255005538
 20
114.34825378283858299
 10
-117.77435536962002516
 20
100.0417958926409483
 10
-119.95575648581143469
 20
95.32474569790065289
  0
LWPOLYLINE
  5
94
  8
CM_Street_Names_translate
100
AcDbEntity
100
AcDbPolyline
  6
CONTINUOUS
420
15066597
 90
     7
 70
     0
 43
0.14999999999999999
 10
-126.1103932122932747
 20
102.47191416937857866
 10
-118.09593883523484692
 20
122.98240696266293526
 10
-112.00613462296314538
 20
140.77801646012812853
 10
-106.47958646930055693
 20
157.93823933228850365
 10
-101.15457037184387445
 20
175.08890534564852715
 10
-93.51295533182565123
 20
204.20408534444868565
 10
-85.71538471919484437
 20
249.99999990500509739
  0
LWPOLYLINE
  5
95
  8
CM_Street_Names_translate
100
AcDbEntity
100
AcDbPolyline
  6
CONTINUOUS
420
15066597
 90
     4
 70
     0
 43
0.14999999999999999
 10
-90.26920054049696773
 20
187.9486500546336174
 10
-83.49088706547627226
 20
181.86753848753869534
 10
-75.54725954297464341
 20
182.00791363697499037
 10
-36.58141397609142587
 20
197.85769780166447163
  0
LWPOLYLINE
  5
96
  8
CM_Street_Names_translate
100
AcDbEntity
100
AcDbPolyline
  6
CONTINUOUS
420
15066597
 90
     3
 70
     0
 43
0.14999999999999999
 10
-78.26372185791842639
 20
249.99999990500509739
 10
-87.35805592301767319
 20
200.04702846799045801
 10
-90.26920054049696773
 20
187.9486500546336174
  0
LWPOLYLINE
  5
97
  8
CM_Street_Names_translate
100
AcDbEntity
100
AcDbPolyline
  6
CONTINUOUS
420
15066597
 90
     8
 70
     0
 43
0.14999999999999999
 10
-36.58141397609142587
 20
197.85769780166447163
 10
-28.43107026594225317
 20
200.91416182368993759
 10
-22.3014302282826975
 20
203.21309860795736313
 10
-18.24769587931223214
 20
204.73345867451280355
 10
-17.61347886722069234
 20
204.97140366584062576
 10
-12.43061194597976282
 20
206.91549348831176758
 10
-12.31100138241890818
 20
206.96042543463408947
 10
-3.99358507379656658
 20
210.23857354372739792
  0
LWPOLYLINE
  5
98
  8
CM_Street_Names_translate
100
AcDbEntity
100
AcDbPolyline
  6
CONTINUOUS
420
15066597
 90
     2
 70
     0
 43
0.14999999999999999
 10
-119.95575648581143469
 20
95.32474569790065289
 10
-110.87913063843734562
 20
87.77374068554490805
  0
LWPOLYLINE
  5
99
  8
CM_Street_Names_translate
100
AcDbEntity
100
AcDbPolyline
  6
CONTINUOUS
420
15066597
 90
    11
 70
     0
 43
0.14999999999999999
 10
28.57141888613114133
 20
-194.77897555194795132
 10
28.10763201268855482
 20
-168.75635059177875519
 10
27.68802001286530867
 20
-165.07155457139015198
 10
27.06087570736417547
 20
-161.38254798576235771
 10
26.23324203107040375
 20
-157.7210435401648283
 10
25.21321172127500176
 20
-154.12051019910722971
 10
23.2334852124331519
 20
-148.54217728972434998
 10
21.52700594218913466
 20
-144.42873521707952023
 10
20.50963911274448037
 20
-142.47879953775554895
 10
19.32358401909004897
 20
-140.66318508796393871
 10
16.87337149726226926
 20
-134.06794470362365246
  0
LWPOLYLINE
  5
9a
  8
CM_Street_Names_translate
100
AcDbEntity
100
AcDbPolyline
  6
CONTINUOUS
420
15066597
 90
     4
 70
     0
 43
0.14999999999999999
 10
33.45721301197772846
 20
-110.22129753418266773
 10
29.8085432507796213
 20
-116.7610780093818903
 10
22.01843191124498844
 20
-127.13077666610479355
 10
16.87337149726226926
 20
-134.06794470362365246
  0
LWPOLYLINE
  5
9b
  8
CM_Street_Names_translate
100
AcDbEntity
100
AcDbPolyline
  6
CONTINUOUS
420
15066597
 90
     2
 70
     0
 43
0.14999999999999999
 10
29.84730981581378728
 20
58.73334008641541004
 10
86.78317837486974895
 20
80.77075187489390373
  0
LWPOLYLINE
  5
9c
  8
CM_Street_Names_translate
100
AcDbEntity
100
AcDbPolyline
  6
CONTINUOUS
420
15066597
 90
     4
 70
     0
 43
0.14999999999999999
 10
143.52063622511923313
 20
-62.62115011736750603
 10
51.12640719232149422
 20
-98.42119243554770947
 10
41.35476124496199191
 20
-104.05086779780685902
 10
33.45721301197772846
 20
-110.22129753418266773
  0
LWPOLYLINE
  5
9d
  8
CM_Street_Names_translate
100
AcDbEntity
100
AcDbPolyline
  6
CONTINUOUS
420
15066597
 90
     2
 70
     0
 43
0.14999999999999999
 10
31.49140478437766433
 20
219.78386697266250849
 10
29.94905425969045609
 20
223.66847670637071133
  0
LWPOLYLINE
  5
9e
  8
CM_Street_Names_translate
100
AcDbEntity
100
AcDbPolyline
  6
CONTINUOUS
420
15066597
 90
     3
 70
     0
 43
0.14999999999999999
 10
233.15359950775746256
 20
-250.00000009499490261
 10
218.47129553358536214
 20
-211.39379685744643211
 10
215.50136587978340685
 20
-202.29300426319241524
  0
LWPOLYLINE
  5
9f
  8
CM_Street_Names_translate
100
AcDbEntity
100
AcDbPolyline
  6
CONTINUOUS
420
15066597
 90
     2
 70
     0
 43
0.14999999999999999
 10
115.50817439699312672
 20
-250.00000009499490261
 10
112.13004736305447295
 20
-240.92323734890669584
  0
LWPOLYLINE
  5
a0
  8
CM_Street_Names_translate
100
AcDbEntity
100
AcDbPolyline
  6
CONTINUOUS
420
15066597
 90
     3
 70
     0
 43
0.14999999999999999
 10
29.00834778731223196
 20
-247.10833457298576832
 10
28.7999991038814187
 20
-230.42530782893300056
 10
28.57141888613114133
 20
-194.77897555194795132
  0
LWPOLYLINE
  5
a1
  8
CM_Street_Names_translate
100
AcDbEntity
100
AcDbPolyline
  6
CONTINUOUS
420
15066597
 90
     2
 70
     0
 43
0.14999999999999999
 10
31.49140478437766433
 20
219.78386697266250849
 10
109.4277278037625365
 20
249.99999990500509739
  0
LWPOLYLINE
  5
a2
  8
CM_Street_Names_translate
100
AcDbEntity
100
AcDbPolyline
  6
CONTINUOUS
420
15066597
 90
     2
 70
     0
 43
0.14999999999999999
 10
68.08537473471369594
 20
127.76705704070627689
 10
249.99999972869409248
 20
199.09983706194907427
  0
LWPOLYLINE
  5
a3
  8
CM_Street_Names_translate
100
AcDbEntity
100
AcDbPolyline
  6
CONTINUOUS
420
15066597
 90
     2
 70
     0
 43
0.14999999999999999
 10
49.90091142815072089
 20
173.42392812017351389
 10
244.44127301638945937
 20
249.99999990500509739
  0
LWPOLYLINE
  5
a4
  8
CM_Street_Names_translate
100
AcDbEntity
100
AcDbPolyline
  6
CONTINUOUS
420
15066597
 90
     2
 70
     0
 43
0.14999999999999999
 10
105.23029154574032873
 20
34.23046344891190529
 10
249.99999972869409248
 20
91.87447979766875505
  0
LWPOLYLINE
  5
a5
  8
CM_Street_Names_translate
100
AcDbEntity
100
AcDbPolyline
  6
CONTINUOUS
420
15066597
 90
     2
 70
     0
 43
0.14999999999999999
 10
86.78317837486974895
 20
80.77075187489390373
 10
249.99999972869409248
 20
145.37846725806593895
  0
LWPOLYLINE
  5
a6
  8
CM_Street_Names_translate
100
AcDbEntity
100
AcDbPolyline
  6
CONTINUOUS
420
15066597
 90
     2
 70
     0
 43
0.14999999999999999
 10
28.57141888613114133
 20
-194.77897555194795132
 10
173.28055636852513999
 20
-138.05147062055766582
  0
LWPOLYLINE
  5
a7
  8
CM_Street_Names_translate
100
AcDbEntity
100
AcDbPolyline
  6
CONTINUOUS
420
15066597
 90
     2
 70
     0
 43
0.14999999999999999
 10
249.99999972869409248
 20
36.20249160286039114
 10
192.52867786056594923
 20
13.50898707937449217
  0
LWPOLYLINE
  5
a8
  8
CM_Street_Names_translate
100
AcDbEntity
100
AcDbPolyline
  6
CONTINUOUS
420
15066597
 90
     4
 70
     0
 43
0.14999999999999999
 10
168.6764490837813355
 20
-126.2996738888323307
 10
241.2944808088359423
 20
-97.46825042553246021
 10
245.43822862592060119
 20
-96.44648244976997375
 10
249.99999972869409248
 20
-94.53767244331538677
  0
LWPOLYLINE
  5
a9
  8
CM_Street_Names_translate
100
AcDbEntity
100
AcDbPolyline
  6
CONTINUOUS
420
15066597
 90
     2
 70
     0
 43
0.14999999999999999
 10
215.50136587978340685
 20
-202.29300426319241524
 10
249.99999972869409248
 20
-194.49323986191302538
  0
LWPOLYLINE
  5
aa
  8
CM_Street_Names_translate
100
AcDbEntity
100
AcDbPolyline
  6
CONTINUOUS
420
15066597
 90
     3
 70
     0
 43
0.14999999999999999
 10
112.13004736305447295
 20
-240.92323734890669584
 10
195.88320923352148384
 20
-207.2430834025144577
 10
203.61616048321593553
 20
-202.42515958938747644
  0
LWPOLYLINE
  5
ab
  8
CM_Street_Names_translate
100
AcDbEntity
100
AcDbPolyline
  6
CONTINUOUS
420
15066597
 90
     2
 70
     0
 43
0.14999999999999999
 10
29.00834778731223196
 20
-247.10833457298576832
 10
32.07056671561440453
 20
-250.00000009499490261
  0
LWPOLYLINE
  5
ac
  8
CM_Street_Names_translate
100
AcDbEntity
100
AcDbPolyline
  6
CONTINUOUS
420
15066597
 90
     2
 70
     0
 43
0.14999999999999999
 10
89.50197063107043505
 20
-250.00000009499490261
 10
112.13004736305447295
 20
-240.92323734890669584
  0
LWPOLYLINE
  5
ad
  8
CM_Street_Names_translate
100
AcDbEntity
100
AcDbPolyline
  6
CONTINUOUS
420
15066597
 90
     4
 70
     0
 43
0.14999999999999999
 10
29.45516383822541684
 20
-26.100925387814641
 10
30.68236903351498768
 20
-24.22571594547480345
 10
31.88942790572764352
 20
-23.32838090881705284
 10
115.00120817439164966
 20
9.62699269130825996
  0
LWPOLYLINE
  5
ae
  8
CM_Street_Names_translate
100
AcDbEntity
100
AcDbPolyline
  6
CONTINUOUS
420
15066597
 90
     2
 70
     0
 43
0.14999999999999999
 10
4.17019609647104517
 20
131.26812879089266062
 10
58.13789298548363149
 20
152.76905006170272827
  0
LWPOLYLINE
  5
af
  8
CM_Street_Names_translate
100
AcDbEntity
100
AcDbPolyline
  6
CONTINUOUS
420
15066597
 90
     2
 70
     0
 43
0.14999999999999999
 10
248.3492994160624221
 20
-250.00000009499490261
 10
249.99999972869409248
 20
-249.40316220931708813
  0
LWPOLYLINE
  5
b0
  8
CM_Street_Names_translate
100
AcDbEntity
100
AcDbPolyline
  6
CONTINUOUS
420
15066597
 90
     2
 70
     0
 43
0.14999999999999999
 10
3.33597877703141421
 20
213.13840969372540712
 10
29.94905425969045609
 20
223.66847670637071133
  0
LWPOLYLINE
  5
b1
  8
CM_Street_Names_translate
100
AcDbEntity
100
AcDbPolyline
  6
CONTINUOUS
420
15066597
 90
    10
 70
     0
 43
0.14999999999999999
 10
173.28055636852513999
 20
-138.05147062055766582
 10
185.66350215108832344
 20
-171.25004317611455917
 10
187.6519078979617916
 20
-176.42845838330686092
 10
193.67264833860099316
 20
-193.84610075037926435
 10
195.15716894366778433
 20
-197.00593532994389534
 10
196.81751919479575008
 20
-198.98225843161344528
 10
198.18442146584857255
 20
-200.08474791795015335
 10
199.71162438986357301
 20
-201.05517540313303471
 10
201.44713209511246532
 20
-201.732510588131845
 10
203.61616048321593553
 20
-202.42515958938747644
  0
LWPOLYLINE
  5
b2
  8
CM_Street_Names_translate
100
AcDbEntity
100
AcDbPolyline
  6
CONTINUOUS
420
15066597
 90
     2
 70
     0
 43
0.14999999999999999
 10
115.00120817439164966
 20
9.62699269130825996
 10
143.52063622511923313
 20
-62.62115011736750603
  0
LWPOLYLINE
  5
b3
  8
CM_Street_Names_translate
100
AcDbEntity
100
AcDbPolyline
  6
CONTINUOUS
420
15066597
 90
     3
 70
     0
 43
0.14999999999999999
 10
203.61616048321593553
 20
-202.42515958938747644
 10
206.93505415145773441
 20
-203.25748259946703911
 10
215.50136587978340685
 20
-202.29300426319241524
  0
LWPOLYLINE
  5
b4
  8
CM_Street_Names_translate
100
AcDbEntity
100
AcDbPolyline
  6
CONTINUOUS
420
15066597
 90
     2
 70
     0
 43
0.14999999999999999
 10
168.6764490837813355
 20
-126.2996738888323307
 10
143.52063622511923313
 20
-62.62115011736750603
  0
LWPOLYLINE
  5
b5
  8
CM_Street_Names_translate
100
AcDbEntity
100
AcDbPolyline
  6
CONTINUOUS
420
15066597
 90
     2
 70
     0
 43
0.14999999999999999
 10
105.23029154574032873
 20
34.23046344891190529
 10
86.78317837486974895
 20
80.77075187489390373
  0
LWPOLYLINE
  5
b6
  8
CM_Street_Names_translate
100
AcDbEntity
100
AcDbPolyline
  6
CONTINUOUS
420
15066597
 90
     2
 70
     0
 43
0.14999999999999999
 10
49.90091142815072089
 20
173.42392812017351389
 10
31.49140478437766433
 20
219.78386697266250849
  0
LWPOLYLINE
  5
b7
  8
CM_Street_Names_translate
100
AcDbEntity
100
AcDbPolyline
  6
CONTINUOUS
420
15066597
 90
     2
 70
     0
 43
0.14999999999999999
 10
249.99999972869409248
 20
245.83364369999617338
 10
248.35666637599933892
 20
249.99999990500509739
  0
LWPOLYLINE
  5
b8
  8
CM_Street_Names_translate
100
AcDbEntity
100
AcDbPolyline
  6
CONTINUOUS
420
15066597
 90
     2
 70
     0
 43
0.14999999999999999
 10
19.46617225732188672
 20
249.99999990500509739
 10
29.94905425969045609
 20
223.66847670637071133
  0
LWPOLYLINE
  5
b9
  8
CM_Street_Names_translate
100
AcDbEntity
100
AcDbPolyline
  6
CONTINUOUS
420
15066597
 90
     2
 70
     0
 43
0.14999999999999999
 10
86.78317837486974895
 20
80.77075187489390373
 10
68.08537473471369594
 20
127.76705704070627689
  0
LWPOLYLINE
  5
ba
  8
CM_Street_Names_translate
100
AcDbEntity
100
AcDbPolyline
  6
CONTINUOUS
420
15066597
 90
     2
 70
     0
 43
0.14999999999999999
 10
68.08537473471369594
 20
127.76705704070627689
 10
58.13789298548363149
 20
152.76905006170272827
  0
LWPOLYLINE
  5
bb
  8
CM_Street_Names_translate
100
AcDbEntity
100
AcDbPolyline
  6
CONTINUOUS
420
15066597
 90
     2
 70
     0
 43
0.14999999999999999
 10
-3.99358507379656658
 20
210.23857354372739792
 10
3.33597877703141421
 20
213.13840969372540712
  0
LWPOLYLINE
  5
bc
  8
CM_Street_Names_translate
100
AcDbEntity
100
AcDbPolyline
  6
CONTINUOUS
420
15066597
 90
     2
 70
     0
 43
0.14999999999999999
 10
49.90091142815072089
 20
173.42392812017351389
 10
58.13789298548363149
 20
152.76905006170272827
  0
LWPOLYLINE
  5
bd
  8
CM_Street_Names_translate
100
AcDbEntity
100
AcDbPolyline
  6
CONTINUOUS
420
15066597
 90
     2
 70
     0
 43
0.14999999999999999
 10
105.23029154574032873
 20
34.23046344891190529
 10
115.00120817439164966
 20
9.62699269130825996
  0
LWPOLYLINE
  5
be
  8
CM_Street_Names_translate
100
AcDbEntity
100
AcDbPolyline
  6
CONTINUOUS
420
15066597
 90
     2
 70
     0
 43
0.14999999999999999
 10
-1.7587616074597463
 20
201.22324682958424091
 10
3.33597877703141421
 20
213.13840969372540712
  0
LWPOLYLINE
  5
bf
  8
CM_Street_Names_translate
100
AcDbEntity
100
AcDbPolyline
  6
CONTINUOUS
420
15066597
 90
     2
 70
     0
 43
0.14999999999999999
 10
168.6764490837813355
 20
-126.2996738888323307
 10
173.28055636852513999
 20
-138.05147062055766582
  0
LWPOLYLINE
  5
c0
  8
CM_Street_Names_translate
100
AcDbEntity
100
AcDbPolyline
  6
CONTINUOUS
420
15066597
 90
     4
 70
     0
 43
0.14999999999999999
 10
33.45721301197772846
 20
-110.22129753418266773
 10
28.79093580227345228
 20
-30.88965110201388597
 10
28.86210374993970618
 20
-27.58810468018054962
 10
29.45516383822541684
 20
-26.100925387814641
  0
LWPOLYLINE
  5
c1
  8
CM_Street_Names_translate
100
AcDbEntity
100
AcDbPolyline
  6
CONTINUOUS
420
15066597
 90
     5
 70
     0
 43
0.14999999999999999
 10
-1.7587616074597463
 20
201.22324682958424091
 10
-3.8280528427567333
 20
192.83397349994629622
 10
-4.9699639780446887
 20
181.71355722192674875
 10
-5.75185552262701094
 20
160.31558971107006073
 10
-5.60522389964899048
 20
139.2782395426183939
  0
LWPOLYLINE
  5
c2
  8
CM_Street_Names_translate
100
AcDbEntity
100
AcDbPolyline
  6
CONTINUOUS
420
15066597
 90
     3
 70
     0
 43
0.14999999999999999
 10
-250.00000027130590752
 20
-4.04246033076196909
 10
-219.31544297660002485
 20
44.12641750834882259
 10
-217.87985611974727362
 20
46.41889559105038643
  0
LWPOLYLINE
  5
c3
  8
CM_Street_Names_translate
100
AcDbEntity
100
AcDbPolyline
  6
CONTINUOUS
420
15066597
 90
     2
 70
     0
 43
0.14999999999999999
 10
-250.00000027130590752
 20
66.55140848644077778
 10
-217.87985611974727362
 20
46.41889559105038643
  0
LWPOLYLINE
  5
c4
  8
CM_Street_Names_translate
100
AcDbEntity
100
AcDbPolyline
  6
CONTINUOUS
420
15066597
 90
     4
 70
     0
 43
0.14999999999999999
 10
-250.00000027130590752
 20
205.33425121568143368
 10
-243.74438808171544224
 20
218.42752882372587919
 10
-225.40926403098274022
 20
236.34740389883518219
 10
-209.44120163423940539
 20
249.99999990500509739
  0
LWPOLYLINE
  5
c5
  8
CM_Street_Names_translate
100
AcDbEntity
100
AcDbPolyline
  6
CONTINUOUS
420
15066597
 90
     3
 70
     0
 43
0.14999999999999999
 10
-217.87985611974727362
 20
46.41889559105038643
 10
-208.83515900559723377
 20
60.10939023084938526
 10
-149.89066905382787809
 20
249.99999990500509739
  0
LWPOLYLINE
  5
c6
  8
CM_Street_Names_translate
100
AcDbEntity
100
AcDbPolyline
  6
CONTINUOUS
420
15066597
 90
     2
 70
     0
 43
0.14999999999999999
 10
-110.87913063843734562
 20
87.77374068554490805
 10
-59.51696405501570553
 20
106.58616502769291401
  0
LWPOLYLINE
  5
c7
  8
CM_Street_Names_translate
100
AcDbEntity
100
AcDbPolyline
  6
CONTINUOUS
420
15066597
 90
     2
 70
     0
 43
0.14999999999999999
 10
-15.32879883301211521
 20
-250.00000009499490261
 10
-15.30761690181680024
 20
-249.44039372354745865
  0
LWPOLYLINE
  5
c8
  8
CM_Street_Names_translate
100
AcDbEntity
100
AcDbPolyline
  6
CONTINUOUS
420
15066597
 90
     3
 70
     0
 43
0.14999999999999999
 10
-3.55006778665119782
 20
-250.00000009499490261
 10
-4.19041236926568672
 20
-231.25966647733002901
 10
-5.49538480176124722
 20
-193.05882592126727104
  0
LWPOLYLINE
  5
c9
  8
CM_Street_Names_translate
100
AcDbEntity
100
AcDbPolyline
  6
CONTINUOUS
420
15066597
 90
    14
 70
     0
 43
0.14999999999999999
 10
5.22385171859059483
 20
-250.00000009499490261
 10
5.09796074201585725
 20
-248.75175985042005777
 10
4.42690387985203415
 20
-242.9564460925757885
 10
2.46420337492600083
 20
-226.40687992610037327
 10
1.4013903695740737
 20
-217.0924222357571125
 10
0.8610885163070634
 20
-212.02566681988537312
 10
0.80443991580978036
 20
-211.49765840172767639
 10
-0.33676379942335188
 20
-199.34364763461053371
 10
-1.26742839824873954
 20
-187.17100212164223194
 10
-1.98997256299480796
 20
-174.98374210763722658
 10
-2.16738803958287463
 20
-171.23807108588516712
 10
-2.40614082710817456
 20
-165.61808669567108154
 10
-2.64017045340733603
 20
-159.37255514226853848
 10
-2.85419372958131135
 20
-153.13164211995899677
  0
LWPOLYLINE
  5
ca
  8
CM_Street_Names_translate
100
AcDbEntity
100
AcDbPolyline
  6
CONTINUOUS
420
15066597
 90
     9
 70
     0
 43
0.14999999999999999
 10
-7.53081932116765529
 20
-249.22742933966219425
 10
-7.59391420183237642
 20
-244.34018091484904289
 10
-7.45130818709731102
 20
-237.98557388782501221
 10
-7.10296518396353349
 20
-230.16559646371752024
 10
-6.56005216477205977
 20
-221.14097307994961739
 10
-5.98763568827416748
 20
-211.62460592016577721
 10
-5.6259138219174929
 20
-203.90383044630289078
 10
-5.46211240300908685
 20
-197.71491066180169582
 10
-5.49538480176124722
 20
-193.05882592126727104
  0
LWPOLYLINE
  5
cb
  8
CM_Street_Names_translate
100
AcDbEntity
100
AcDbPolyline
  6
CONTINUOUS
420
15066597
 90
     4
 70
     0
 43
0.14999999999999999
 10
-7.53081932116765529
 20
-249.22742933966219425
 10
-9.17027380433864892
 20
-201.96277382504194975
 10
-10.80889708758331835
 20
-154.69810649938881397
 10
-10.83969394839368761
 20
-153.80072718299925327
  0
LWPOLYLINE
  5
cc
  8
CM_Street_Names_translate
100
AcDbEntity
100
AcDbPolyline
  6
CONTINUOUS
420
15066597
 90
     3
 70
     0
 43
0.14999999999999999
 10
-5.49538480176124722
 20
-193.05882592126727104
 10
-6.15168411517515779
 20
-173.86003027390688658
 10
-6.84425485448446125
 20
-153.59490826167166233
  0
LWPOLYLINE
  5
cd
  8
CM_Street_Names_translate
100
AcDbEntity
100
AcDbPolyline
  6
CONTINUOUS
420
15066597
 90
     2
 70
     0
 43
0.14999999999999999
 10
-15.94089736818568781
 20
-121.63222930300980806
 10
-16.02996093919500709
 20
-119.03449859842658043
  0
LWPOLYLINE
  5
ce
  8
CM_Street_Names_translate
100
AcDbEntity
100
AcDbPolyline
  6
CONTINUOUS
420
15066597
 90
     2
 70
     0
 43
0.14999999999999999
 10
-11.97895515454001725
 20
-120.46941475942730904
 10
-14.27685573813505471
 20
-53.17968405410647392
  0
LWPOLYLINE
  5
cf
  8
CM_Street_Names_translate
100
AcDbEntity
100
AcDbPolyline
  6
CONTINUOUS
420
15066597
 90
     2
 70
     0
 43
0.14999999999999999
 10
-8.01536972774192691
 20
-119.30557850748300552
 10
-10.2792974867625162
 20
-53.04442951083183289
  0
LWPOLYLINE
  5
d0
  8
CM_Street_Names_translate
100
AcDbEntity
100
AcDbPolyline
  6
CONTINUOUS
420
15066597
 90
     8
 70
     0
 43
0.14999999999999999
 10
-16.02996093919500709
 20
-119.03449859842658043
 10
-16.1480847179191187
 20
-108.02484332583844662
 10
-16.05300181987695396
 20
-99.02702581509947777
 10
-15.74469457136001438
 20
-92.04204007238149643
 10
-14.69135931751225144
 20
-81.97424781881272793
 10
-14.35620896407635882
 20
-74.62882336601614952
 10
-14.21859434794168919
 20
-65.03064519166946411
 10
-14.27685573813505471
 20
-53.17968405410647392
  0
LWPOLYLINE
  5
d1
  8
CM_Street_Names_translate
100
AcDbEntity
100
AcDbPolyline
  6
CONTINUOUS
420
15066597
 90
     2
 70
     0
 43
0.14999999999999999
 10
-16.02996093919500709
 20
-119.03449859842658043
 10
-24.13036222499795258
 20
118.09885355364531279
  0
LWPOLYLINE
  5
d2
  8
CM_Street_Names_translate
100
AcDbEntity
100
AcDbPolyline
  6
CONTINUOUS
420
15066597
 90
     8
 70
     0
 43
0.14999999999999999
 10
-4.06995433976408094
 20
-118.14703683834522963
 10
-4.89977520180400461
 20
-106.13767782226204872
 10
-5.74047504365444183
 20
-96.28531687334179878
 10
-6.55872628337237984
 20
-89.06666659004986286
 10
-8.12908756430260837
 20
-80.0654562572017312
 10
-8.87363161367829889
 20
-73.35363121703267097
 10
-9.5906331839505583
 20
-64.34728987608104944
 10
-10.2792974867625162
 20
-53.04442951083183289
  0
LWPOLYLINE
  5
d3
  8
CM_Street_Names_translate
100
AcDbEntity
100
AcDbPolyline
  6
CONTINUOUS
420
15066597
 90
     2
 70
     0
 43
0.14999999999999999
 10
-4.06995433976408094
 20
-118.14703683834522963
 10
-12.1375767988502048
 20
118.51058036461472511
  0
LWPOLYLINE
  5
d4
  8
CM_Street_Names_translate
100
AcDbEntity
100
AcDbPolyline
  6
CONTINUOUS
420
15066597
 90
     2
 70
     0
 43
0.14999999999999999
 10
-14.27685573813505471
 20
-53.17968405410647392
 10
-17.20480520359706134
 20
32.52771435584872961
  0
LWPOLYLINE
  5
d5
  8
CM_Street_Names_translate
100
AcDbEntity
100
AcDbPolyline
  6
CONTINUOUS
420
15066597
 90
     2
 70
     0
 43
0.14999999999999999
 10
-10.2792974867625162
 20
-53.04442951083183289
 10
-10.96203999686986208
 20
-33.05358530301600695
  0
LWPOLYLINE
  5
d6
  8
CM_Street_Names_translate
100
AcDbEntity
100
AcDbPolyline
  6
CONTINUOUS
420
15066597
 90
     9
 70
     0
 43
0.14999999999999999
 10
-10.96203999686986208
 20
-33.05358530301600695
 10
-11.6834917253581807
 20
-20.97568985261023045
 10
-12.45291204622481018
 20
-11.30503633245825768
 10
-13.2711311248713173
 20
-4.04163931030780077
 10
-14.13814886746695265
 20
0.81450124457478523
 10
-14.99864689714740962
 20
5.53651589900255203
 10
-15.79645933653227985
 20
12.39655580930411816
 10
-16.53155130078084767
 20
21.39263279922306538
 10
-17.20480520359706134
 20
32.52771435584872961
  0
LWPOLYLINE
  5
d7
  8
CM_Street_Names_translate
100
AcDbEntity
100
AcDbPolyline
  6
CONTINUOUS
420
15066597
 90
     2
 70
     0
 43
0.14999999999999999
 10
-10.96203999686986208
 20
-33.05358530301600695
 10
-13.89079982996918261
 20
52.65479013323783875
  0
LWPOLYLINE
  5
d8
  8
CM_Street_Names_translate
100
AcDbEntity
100
AcDbPolyline
  6
CONTINUOUS
420
15066597
 90
     2
 70
     0
 43
0.14999999999999999
 10
-17.20480520359706134
 20
32.52771435584872961
 10
-17.88838484982261434
 20
52.51854177191853523
  0
LWPOLYLINE
  5
d9
  8
CM_Street_Names_translate
100
AcDbEntity
100
AcDbPolyline
  6
CONTINUOUS
420
15066597
 90
     9
 70
     0
 43
0.14999999999999999
 10
-17.88838484982261434
 20
52.51854177191853523
 10
-18.66179757146164775
 20
64.57662484049797058
 10
-19.45370838814415038
 20
74.3920591427013278
 10
-20.26498240989167243
 20
81.96681823208928108
 10
-21.09477207704912871
 20
87.29992274194955826
 10
-21.91351498512085527
 20
92.38363352138549089
 10
-22.69251379929482937
 20
99.2121848976239562
 10
-23.43173372949240729
 20
107.78358867298811674
 10
-24.13036222499795258
 20
118.09885355364531279
  0
LWPOLYLINE
  5
da
  8
CM_Street_Names_translate
100
AcDbEntity
100
AcDbPolyline
  6
CONTINUOUS
420
15066597
 90
     9
 70
     0
 43
0.14999999999999999
 10
-13.89079982996918261
 20
52.65479013323783875
 10
-14.02134764462243766
 20
64.83858305867761374
 10
-13.91952958854380995
 20
74.81896205618977547
 10
-13.58538054989185184
 20
82.59791531320661306
 10
-13.01969553850358352
 20
88.17344007734209299
 10
-12.45326481270603836
 20
93.42481077648699284
 10
-12.11689600790850818
 20
100.23229588847607374
 10
-12.01221410650759935
 20
108.59387796558439732
 10
-12.1375767988502048
 20
118.51058036461472511
  0
LWPOLYLINE
  5
db
  8
CM_Street_Names_translate
100
AcDbEntity
100
AcDbPolyline
  6
CONTINUOUS
420
15066597
 90
    13
 70
     0
 43
0.14999999999999999
 10
-20.16592160589061677
 20
119.21994570456445217
 10
-21.05669050954747945
 20
145.29966261144727468
 10
-21.47973458643537015
 20
158.62579895742237568
 10
-21.70841746305814013
 20
168.09320593625307083
 10
-21.91718085308093578
 20
177.56096467841416597
 10
-22.10602468764409423
 20
187.02907518669962883
 10
-22.24098911939654499
 20
197.58300328813493252
 10
-22.3014255475718528
 20
203.21309578418731689
 10
-22.50175601325463504
 20
222.02616309933364391
 10
-22.57097773347049952
 20
227.02566485293209553
 10
-22.72656782739795744
 20
236.49137900117784739
 10
-22.93527594034094363
 20
245.95615469757467508
 10
-23.0485053148586303
 20
249.99999990500509739
  0
LWPOLYLINE
  5
dc
  8
CM_Street_Names_translate
100
AcDbEntity
100
AcDbPolyline
  6
CONTINUOUS
420
15066597
 90
    16
 70
     0
 43
0.14999999999999999
 10
-16.27905006252694875
 20
122.71125657483935356
 10
-17.19369750592159107
 20
149.53235700074583292
 10
-17.4126147439237684
 20
156.47322299238294363
 10
-17.59271580551285297
 20
162.72069906257092953
 10
-17.83644835103768855
 20
172.99328584037721157
 10
-18.02874003641773015
 20
183.26777555607259274
 10
-18.18012718250975013
 20
194.84562228247523308
 10
-18.23376454028766602
 20
201.87691273912787437
 10
-18.24769582599401474
 20
204.73351328633725643
 10
-18.27551125548779964
 20
210.20905895717442036
 10
-18.30399544490501285
 20
218.54243373312056065
 10
-18.32079562445869669
 20
232.65334801562130451
 10
-18.35503166023408994
 20
234.82645242381840944
 10
-18.33222523122094572
 20
236.68435243144631386
 10
-18.38405549665912986
 20
246.76244691666215658
 10
-18.4160271396394819
 20
249.99999990500509739
  0
LWPOLYLINE
  5
dd
  8
CM_Street_Names_translate
100
AcDbEntity
100
AcDbPolyline
  6
CONTINUOUS
420
15066597
 90
    17
 70
     0
 43
0.14999999999999999
 10
-24.13036222499795258
 20
118.09885355364531279
 10
-24.47881288675125688
 20
128.09514303505420685
 10
-24.73099744698265567
 20
134.7569959219545126
 10
-25.08534843113739043
 20
143.11345218494534492
 10
-25.32769905216991901
 20
148.1377386711537838
 10
-25.75747357704676688
 20
156.11102135572582483
 10
-26.11476367065915838
 20
162.23703642375767231
 10
-27.53263429267099127
 20
185.02102243714034557
 10
-28.0105566451093182
 20
193.08792005851864815
 10
-28.43109386810101569
 20
200.91419760417193174
 10
-28.4420406487188302
 20
201.11089098174124956
 10
-28.83453370461938903
 20
209.13554500974714756
 10
-29.18805327790323645
 20
217.16287622880190611
 10
-29.29563036526087672
 20
219.86866590287536383
 10
-29.54821510799229145
 20
226.60011739749461412
 10
-29.84884217951912433
 20
235.20512180589139462
 10
-30.35438292403705418
 20
249.99999990500509739
  0
LWPOLYLINE
  5
de
  8
CM_Street_Names_translate
100
AcDbEntity
100
AcDbPolyline
  6
CONTINUOUS
420
15066597
 90
     2
 70
     0
 43
0.14999999999999999
 10
-12.1375767988502048
 20
118.51058036461472511
 10
-12.3937348946928978
 20
126.14983617514371872
  0
LWPOLYLINE
  5
df
  8
CM_Street_Names_translate
100
AcDbEntity
100
AcDbPolyline
  6
CONTINUOUS
420
15066597
 90
     2
 70
     0
 43
0.14999999999999999
 10
-13.89079982996918261
 20
52.65479013323783875
 10
-16.27905006252694875
 20
122.71125657483935356
  0
LWPOLYLINE
  5
e0
  8
CM_Street_Names_translate
100
AcDbEntity
100
AcDbPolyline
  6
CONTINUOUS
420
15066597
 90
     2
 70
     0
 43
0.14999999999999999
 10
-17.88838484982261434
 20
52.51854177191853523
 10
-20.16592160589061677
 20
119.21994570456445217
  0
LWPOLYLINE
  5
e1
  8
CM_Street_Names_translate
100
AcDbEntity
100
AcDbPolyline
  6
CONTINUOUS
420
15066597
 90
     4
 70
     0
 43
0.14999999999999999
 10
-14.84926302282838151
 20
-153.67666390910744667
 10
-15.32388954272028059
 20
-139.73392481170594692
 10
-15.37699659634381533
 20
-138.18462765589356422
 10
-15.94089736818568781
 20
-121.63222930300980806
  0
LWPOLYLINE
  5
e2
  8
CM_Street_Names_translate
100
AcDbEntity
100
AcDbPolyline
  6
CONTINUOUS
420
15066597
 90
     4
 70
     0
 43
0.14999999999999999
 10
-10.83969394839368761
 20
-153.80072718299925327
 10
-11.32611730403732508
 20
-139.56584948021918535
 10
-11.39434997935313731
 20
-137.5832707341760397
 10
-11.97895515454001725
 20
-120.46941475942730904
  0
LWPOLYLINE
  5
e3
  8
CM_Street_Names_translate
100
AcDbEntity
100
AcDbPolyline
  6
CONTINUOUS
420
15066597
 90
     4
 70
     0
 43
0.14999999999999999
 10
-6.84425485448446125
 20
-153.59490826167166233
 10
-7.33112871961202472
 20
-139.33418482542037964
 10
-7.41168529738206416
 20
-136.98290957231074572
 10
-8.01536972774192691
 20
-119.30557850748300552
  0
LWPOLYLINE
  5
e4
  8
CM_Street_Names_translate
100
AcDbEntity
100
AcDbPolyline
  6
CONTINUOUS
420
15066597
 90
     5
 70
     0
 43
0.14999999999999999
 10
-2.85419372958131135
 20
-153.13164211995899677
 10
-3.34416604723082855
 20
-138.83617033623158932
 10
-3.42815513850655407
 20
-136.38452357426285744
 10
-4.03662699996493757
 20
-118.62374951597303152
 10
-4.06995433976408094
 20
-118.14703683834522963
  0
LWPOLYLINE
  5
e5
  8
CM_Street_Names_translate
100
AcDbEntity
100
AcDbPolyline
  6
CONTINUOUS
420
15066597
 90
    19
 70
     0
 43
0.14999999999999999
 10
-12.3937348946928978
 20
126.14983617514371872
 10
-12.50974399538245052
 20
129.61518165655434132
 10
-12.74835344997700304
 20
137.38898833002895117
 10
-12.92666249151807278
 20
144.05214596353471279
 10
-13.07180776132736355
 20
150.71787812374532223
 10
-13.18925897317240015
 20
158.49481916334480047
 10
-13.23155660112388432
 20
164.64926912821829319
 10
-13.22986558580305427
 20
170.80449607409536839
 10
-13.18498060735873878
 20
176.95849721133708954
 10
-13.08897901081945747
 20
183.22676026076078415
 10
-12.98092400294262916
 20
188.53068996034562588
 10
-12.85172956506721675
 20
193.67191512137651443
 10
-12.66301921033300459
 20
200.09693851321935654
 10
-12.43061599263455719
 20
206.91551271732896566
 10
-12.31324344268068671
 20
210.37603092379868031
 10
-11.50714233191683888
 20
231.71767784748226404
 10
-11.19971083989366889
 20
240.21111411973834038
 10
-10.92385242943419144
 20
248.70598128717392683
 10
-10.88905423018150032
 20
249.99999990500509739
  0
LWPOLYLINE
  5
e6
  8
CM_Street_Names_translate
100
AcDbEntity
100
AcDbPolyline
  6
CONTINUOUS
420
15066597
 90
     2
 70
     0
 43
0.14999999999999999
 10
-7.50632523745298386
 20
-250.00000009499490261
 10
-7.53081932116765529
 20
-249.22742933966219425
  0
LWPOLYLINE
  5
e7
  8
CM_Street_Names_translate
100
AcDbEntity
100
AcDbPolyline
  6
CONTINUOUS
420
15066597
 90
    15
 70
     0
 43
0.14999999999999999
 10
-15.30761690181680024
 20
-249.44039372354745865
 10
-14.83885562466457486
 20
-237.06503023952245712
 10
-14.40230180672369897
 20
-224.88712297938764095
 10
-14.20921788027044386
 20
-218.57040475960820913
 10
-14.05502205569064245
 20
-212.30807007104158401
 10
-14.05052061128662899
 20
-212.13994063436985016
 10
-13.9663777332752943
 20
-207.739325150847435
 10
-13.88817389932228252
 20
-201.02887422032654285
 10
-13.8755873364279978
 20
-194.31659947335720062
 10
-13.92773555871099234
 20
-187.60546846222132444
 10
-14.01264146633911878
 20
-182.18860214296728373
 10
-14.15167056617792696
 20
-175.86979673616588116
 10
-14.29878652805928141
 20
-170.45601830072700977
 10
-14.52345899597276002
 20
-163.23682511411607265
 10
-14.84926302282838151
 20
-153.67666390910744667
  0
MTEXT
  5
e8
100
AcDbEntity
100
AcDbMText
  8
CM_Street_Names_translate
420
     0
 10
88.85841313274669062
 20
-171.0037231712751975
  1
\f.SF NS Text|i0|b1;\H2.33667;ENDEAVOUR\~STREET
 50
21.40570213506022057
 41
28.40158083071711914
 71
     7
  7
STANDARD
  0
MTEXT
  5
e9
100
AcDbEntity
100
AcDbMText
  8
CM_Street_Names_translate
420
     0
 10
58.71961094718141538
 20
151.66487061971915296
  1
\f.SF NS Text|i0|b1;\H2.33667;ANDERSON\~STREET
 50
291.69600426044081587
 41
26.86881876170412298
 71
     7
  7
STANDARD
  0
MTEXT
  5
ea
100
AcDbEntity
100
AcDbMText
  8
CM_Street_Names_translate
420
     0
 10
73.04235858173635165
 20
115.66576196672464505
  1
\f.SF NS Text|i0|b1;\H2.33667;ANDERSON\~STREET
 50
291.69547669204297335
 41
26.86881876170412298
 71
     7
  7
STANDARD
  0
MTEXT
  5
eb
100
AcDbEntity
100
AcDbMText
  8
CM_Street_Names_translate
420
     0
 10
181.92509986267776867
 20
-160.84882171828223818
  1
\f.SF NS Text|i0|b1;\H2.33667;ANDERSON\~STREET
 50
290.13603985295270604
 41
26.86881876170412298
 71
     7
  7
STANDARD
  0
MTEXT
  5
ec
100
AcDbEntity
100
AcDbMText
  8
CM_Street_Names_translate
420
     0
 10
219.89323880766667685
 20
-214.76048903770816878
  1
\f.SF NS Text|i0|b1;\H2.33667;ANDERSON\~STREET
 50
290.82228248202022769
 41
26.86881876170412298
 71
     7
  7
STANDARD
  0
MTEXT
  5
ed
100
AcDbEntity
100
AcDbMText
  8
CM_Street_Names_translate
420
     0
 10
49.61829652081864594
 20
174.48980174799481802
  1
\f.SF NS Text|i0|b1;\H2.33667;ANDERSON\~STREET
 50
291.74167355171260851
 41
26.86881876170412298
 71
     7
  7
STANDARD
  0
MTEXT
  5
ee
100
AcDbEntity
100
AcDbMText
  8
CM_Street_Names_translate
420
     0
 10
20.31319044239756977
 20
248.23013022664088112
  1
\f.SF NS Text|i0|b1;\H2.33667;ANDERSON\~STREET
 50
291.7080699015771188
 41
26.86881876170412298
 71
     7
  7
STANDARD
  0
MTEXT
  5
ef
100
AcDbEntity
100
AcDbMText
  8
CM_Street_Names_translate
420
     0
 10
36.31169562478508084
 20
208.00362531989043191
  1
\f.SF NS Text|i0|b1;\H2.33667;ANDERSON\~STREET
 50
291.65800018571587771
 41
26.86881876170412298
 71
     7
  7
STANDARD
  0
MTEXT
  5
f0
100
AcDbEntity
100
AcDbMText
  8
CM_Street_Names_translate
420
     0
 10
105.7309305033927842
 20
33.32831857898893446
  1
\f.SF NS Text|i0|b1;\H2.33667;ANDERSON\~STREET
 50
291.65979387464824413
 41
26.86881876170412298
 71
     7
  7
STANDARD
  0
MTEXT
  5
f1
100
AcDbEntity
100
AcDbMText
  8
CM_Street_Names_translate
420
     0
 10
91.62947101967202457
 20
68.90310146610252673
  1
\f.SF NS Text|i0|b1;\H2.33667;ANDERSON\~STREET
 50
291.62182423733065662
 41
26.86881876170412298
 71
     7
  7
STANDARD
  0
MTEXT
  5
f2
100
AcDbEntity
100
AcDbMText
  8
CM_Street_Names_translate
420
     0
 10
151.73434231407594552
 20
-83.05291184093233881
  1
\f.SF NS Text|i0|b1;\H2.33667;ANDERSON\~STREET
 50
291.55619606756101803
 41
26.86881876170412298
 71
     7
  7
STANDARD
  0
MTEXT
  5
f3
100
AcDbEntity
100
AcDbMText
  8
CM_Street_Names_translate
420
     0
 10
124.89969435148972821
 20
-15.08844179987085532
  1
\f.SF NS Text|i0|b1;\H2.33667;ANDERSON\~STREET
 50
291.54126705035423583
 41
26.86881876170412298
 71
     7
  7
STANDARD
  0
MTEXT
  5
f4
100
AcDbEntity
100
AcDbMText
  8
CM_Street_Names_translate
420
     0
 10
166.64657229280470574
 20
-120.75577876788422316
  1
\f.SF NS Text|i0|b1;\H2.33667;ANDERSON\~STREET
 50
291.39420329919823871
 41
26.86881876170412298
 71
     7
  7
STANDARD
  0
MTEXT
  5
f5
100
AcDbEntity
100
AcDbMText
  8
CM_Street_Names_translate
420
     0
 10
60.53040696205412985
 20
-11.82936272312508841
  1
\f.SF NS Text|i0|b1;\H2.33667;MCINTOSH\~STREET
 50
21.62925091435641889
 41
26.32985049708085867
 71
     7
  7
STANDARD
  0
MTEXT
  5
f6
100
AcDbEntity
100
AcDbMText
  8
CM_Street_Names_translate
420
     0
 10
-164.70945414922067584
 20
-97.93463653886975351
  1
\f.SF NS Text|i0|b1;\H2.33667;MCINTOSH\~STREET
 50
20.93691577034893925
 41
26.32985049708085867
 71
     7
  7
STANDARD
  0
MTEXT
  5
f7
100
AcDbEntity
100
AcDbMText
  8
CM_Street_Names_translate
420
     0
 10
-206.14504328139832978
 20
38.88989257484961826
  1
\f.SF NS Text|i0|b1;\H2.33667;LEPLASTRIER\~LANE
 50
326.7722107922324426
 41
26.24798189992289466
 71
     7
  7
STANDARD
  0
MTEXT
  5
f8
100
AcDbEntity
100
AcDbMText
  8
CM_Street_Names_translate
420
     0
 10
-243.97891117263338856
 20
62.93361874811092349
  1
\f.SF NS Text|i0|b1;\H2.33667;LEPLASTRIER\~LANE
 50
327.9210180420872689
 41
26.24798189992289466
 71
     7
  7
STANDARD
  0
MTEXT
  5
f9
100
AcDbEntity
100
AcDbMText
  8
CM_Street_Names_translate
420
     0
 10
198.26129931337752055
 20
-202.35238090653689369
  1
\f.SF NS Text|i0|b1;\H2.33667;VICTORIA\~AVENUE
 50
0.63706348681874181
 41
25.02450119795109273
 71
     7
  7
STANDARD
  0
MTEXT
  5
fa
100
AcDbEntity
100
AcDbMText
  8
CM_Street_Names_translate
420
     0
 10
147.63041225070142559
 20
-226.50465527988745862
  1
\f.SF NS Text|i0|b1;\H2.33667;VICTORIA\~AVENUE
 50
21.90683052965456312
 41
25.02450119795109273
 71
     7
  7
STANDARD
  0
MTEXT
  5
fb
100
AcDbEntity
100
AcDbMText
  8
CM_Street_Names_translate
420
     0
 10
221.62675862006068428
 20
-200.77246744075497986
  1
\f.SF NS Text|i0|b1;\H2.33667;VICTORIA\~AVENUE
 50
12.7397625629203759
 41
25.02450119795109273
 71
     7
  7
STANDARD
  0
MTEXT
  5
fc
100
AcDbEntity
100
AcDbMText
  8
CM_Street_Names_translate
420
     0
 10
90.20965051214501784
 20
-249.57356879138674799
  1
\f.SF NS Text|i0|b1;\H2.33667;VICTORIA\~AVENUE
 50
21.85711955106540927
 41
25.02450119795109273
 71
     7
  7
STANDARD
  0
MTEXT
  5
fd
100
AcDbEntity
100
AcDbMText
  8
CM_Street_Names_translate
420
     0
 10
-108.21759545996791019
 20
130.7877099982756306
  1
\f.SF NS Text|i0|b1;\H2.33667;PACIFIC\~HIGHWAY
 50
73.00744838397174874
 41
24.76752476798304059
 71
     7
  7
STANDARD
  0
MTEXT
  5
fe
100
AcDbEntity
100
AcDbMText
  8
CM_Street_Names_translate
420
     0
 10
-221.88428808413738125
 20
-61.39487432208937889
  1
\f.SF NS Text|i0|b1;\H2.33667;PACIFIC\~HIGHWAY
 50
59.38163451916955182
 41
24.76752476798304059
 71
     7
  7
STANDARD
  0
MTEXT
  5
ff
100
AcDbEntity
100
AcDbMText
  8
CM_Street_Names_translate
420
     0
 10
-250.22400406095036374
 20
-149.1855191603417552
  1
\f.SF NS Text|i0|b1;\H2.33667;PACIFIC\~HIGHWAY
 50
71.97247693773455524
 41
24.76752476798304059
 71
     7
  7
STANDARD
  0
MTEXT
  5
100
100
AcDbEntity
100
AcDbMText
  8
CM_Street_Names_translate
420
     0
 10
-154.90760617143070021
 20
49.93899464060879012
  1
\f.SF NS Text|i0|b1;\H2.33667;PACIFIC\~HIGHWAY
 50
59.52371107847323373
 41
24.76752476798304059
 71
     7
  7
STANDARD
  0
MTEXT
  5
101
100
AcDbEntity
100
AcDbMText
  8
CM_Street_Names_translate
420
     0
 10
-226.21413034946286302
 20
-83.56662526825139992
  1
\f.SF NS Text|i0|b1;\H2.33667;PACIFIC\~HIGHWAY
 50
61.64950585359343194
 41
24.76752476798304059
 71
     7
  7
STANDARD
  0
MTEXT
  5
102
100
AcDbEntity
100
AcDbMText
  8
CM_Street_Names_translate
420
     0
 10
-86.07193683508907611
 20
207.85007741179930463
  1
\f.SF NS Text|i0|b1;\H2.33667;PACIFIC\~HIGHWAY
 50
79.68185767194873392
 41
24.76752476798304059
 71
     7
  7
STANDARD
  0
MTEXT
  5
103
100
AcDbEntity
100
AcDbMText
  8
CM_Street_Names_translate
420
     0
 10
-104.65848557441371725
 20
164.24970165760112195
  1
\f.SF NS Text|i0|b1;\H2.33667;PACIFIC\~HIGHWAY
 50
74.00783495827455738
 41
24.76752476798304059
 71
     7
  7
STANDARD
  0
MTEXT
  5
104
100
AcDbEntity
100
AcDbMText
  8
CM_Street_Names_translate
420
     0
 10
-159.40797017335592045
 20
25.57693792068705463
  1
\f.SF NS Text|i0|b1;\H2.33667;PACIFIC\~HIGHWAY
 50
57.45228276333276796
 41
24.76752476798304059
 71
     7
  7
STANDARD
  0
MTEXT
  5
105
100
AcDbEntity
100
AcDbMText
  8
CM_Street_Names_translate
420
     0
 10
30.45187847162394945
 20
-56.87408578433196027
  1
\f.SF NS Text|i0|b1;\H2.33667;CAMBRIDGE\~LANE
 50
273.36625177487900373
 41
24.7402352355970514
 71
     7
  7
STANDARD
  0
MTEXT
  5
106
100
AcDbEntity
100
AcDbMText
  8
CM_Street_Names_translate
420
     0
 10
238.565807903242046
 20
-253.39668662041782454
  1
\f.SF NS Text|i0|b1;\H2.33667;CHARLOTTE\~LANE
 50
19.87829145631694772
 41
24.71294570321106221
 71
     7
  7
STANDARD
  0
MTEXT
  5
107
100
AcDbEntity
100
AcDbMText
  8
CM_Street_Names_translate
420
     0
 10
-57.23288739962814731
 20
-226.72995469616182618
  1
\f.SF NS Text|i0|b1;\H2.33667;RAILWAY\~STREET
 50
271.5289806766069205
 41
23.44398244726261638
 71
     7
  7
STANDARD
  0
MTEXT
  5
108
100
AcDbEntity
100
AcDbMText
  8
CM_Street_Names_translate
420
     0
 10
-123.52496402943256726
 20
98.46614527849905585
  1
\f.SF NS Text|i0|b1;\H2.33667;RAILWAY\~STREET
 50
320.24233289441082206
 41
23.44398244726261638
 71
     7
  7
STANDARD
  0
MTEXT
  5
109
100
AcDbEntity
100
AcDbMText
  8
CM_Street_Names_translate
420
     0
 10
-59.16266705264849435
 20
-173.25201173933396603
  1
\f.SF NS Text|i0|b1;\H2.33667;RAILWAY\~STREET
 50
272.08712271126717042
 41
23.44398244726261638
 71
     7
  7
STANDARD
  0
MTEXT
  5
10a
100
AcDbEntity
100
AcDbMText
  8
CM_Street_Names_translate
420
     0
 10
-100.99870757735060067
 20
62.36637942086264275
  1
\f.SF NS Text|i0|b1;\H2.33667;RAILWAY\~STREET
 50
290.97198902752495542
 41
23.44398244726261638
 71
     7
  7
STANDARD
  0
MTEXT
  5
10b
100
AcDbEntity
100
AcDbMText
  8
CM_Street_Names_translate
420
     0
 10
-61.66792812852652617
 20
-90.37545302325938223
  1
\f.SF NS Text|i0|b1;\H2.33667;RAILWAY\~STREET
 50
271.52731756998105084
 41
23.44398244726261638
 71
     7
  7
STANDARD
  0
MTEXT
  5
10c
100
AcDbEntity
100
AcDbMText
  8
CM_Street_Names_translate
420
     0
 10
-72.00258730318350331
 20
-9.97603476892460783
  1
\f.SF NS Text|i0|b1;\H2.33667;RAILWAY\~STREET
 50
293.01407153284338847
 41
23.44398244726261638
 71
     7
  7
STANDARD
  0
MTEXT
  5
10d
100
AcDbEntity
100
AcDbMText
  8
CM_Street_Names_translate
420
     0
 10
199.36942012522536061
 20
-113.97133185780788267
  1
\f.SF NS Text|i0|b1;\H2.33667;FERGUSON\~LANE
 50
21.65448498798701849
 41
23.31208304073033943
 71
     7
  7
STANDARD
  0
MTEXT
  5
10e
100
AcDbEntity
100
AcDbMText
  8
CM_Street_Names_translate
420
     0
 10
28.80524093851251877
 20
-210.60857308000439048
  1
\f.SF NS Text|i0|b1;\H2.33667;ORCHARD\~ROAD
 50
270.3817753785806417
 41
22.73672873292575858
 71
     7
  7
STANDARD
  0
MTEXT
  5
10f
100
AcDbEntity
100
AcDbMText
  8
CM_Street_Names_translate
420
     0
 10
25.08208262844672731
 20
-153.30812164968907041
  1
\f.SF NS Text|i0|b1;\H2.33667;ORCHARD\~ROAD
 50
279.03261856843232636
 41
22.73672873292575858
 71
     7
  7
STANDARD
  0
MTEXT
  5
110
100
AcDbEntity
100
AcDbMText
  8
CM_Street_Names_translate
420
     0
 10
245.51466405733336273
 20
257.56595622190144468
  1
\f.SF NS Text|i0|b1;\H2.33667;ARCHER\~STREET
 50
291.52573359939674447
 41
22.70489094514210393
 71
     7
  7
STANDARD
  0
MTEXT
  5
111
100
AcDbEntity
100
AcDbMText
  8
CM_Street_Names_translate
420
     0
 10
9.13838908470398081
 20
215.57655864268858181
  1
\f.SF NS Text|i0|b1;\H2.33667;WILSON\~STREET
 50
21.58735233798287112
 41
22.37514242881141513
 71
     7
  7
STANDARD
  0
MTEXT
  5
112
100
AcDbEntity
100
AcDbMText
  8
CM_Street_Names_translate
420
     0
 10
-9.83473566774389774
 20
208.06989849708301676
  1
\f.SF NS Text|i0|b1;\H2.33667;WILSON\~STREET
 50
21.58551352718671978
 41
22.37514242881141513
 71
     7
  7
STANDARD
  0
MTEXT
  5
113
100
AcDbEntity
100
AcDbMText
  8
CM_Street_Names_translate
420
     0
 10
-31.73339651692282715
 20
199.81706569411429086
  1
\f.SF NS Text|i0|b1;\H2.33667;WILSON\~STREET
 50
20.55913855449145444
 41
22.37514242881141513
 71
     7
  7
STANDARD
  0
MTEXT
  5
114
100
AcDbEntity
100
AcDbMText
  8
CM_Street_Names_translate
420
     0
 10
-73.43243665217988791
 20
183.01098097821886768
  1
\f.SF NS Text|i0|b1;\H2.33667;WILSON\~STREET
 50
22.13457177095559558
 41
22.37514242881141513
 71
     7
  7
STANDARD
  0
MTEXT
  5
115
100
AcDbEntity
100
AcDbMText
  8
CM_Street_Names_translate
420
     0
 10
-94.71889756926209714
 20
93.83365917720125537
  1
\f.SF NS Text|i0|b1;\H2.33667;O'BRIEN\~STREET
 50
20.11627050718014686
 41
22.20003459600132345
 71
     7
  7
STANDARD
  0
MTEXT
  5
116
100
AcDbEntity
100
AcDbMText
  8
CM_Street_Names_translate
420
     0
 10
21.73073376380575894
 20
138.40673611453260605
  1
\f.SF NS Text|i0|b1;\H2.33667;O'BRIEN\~STREET
 50
21.72251209515517445
 41
22.20003459600132345
 71
     7
  7
STANDARD
  0
MTEXT
  5
117
100
AcDbEntity
100
AcDbMText
  8
CM_Street_Names_translate
420
     0
 10
-100.18933193757642641
 20
-240.59264176114973566
  1
\f.SF NS Text|i0|b1;\H2.33667;BROWN\~STREET
 50
20.46478582158734127
 41
21.83844829188698
 71
     7
  7
STANDARD
  0
MTEXT
  5
118
100
AcDbEntity
100
AcDbMText
  8
CM_Street_Names_translate
420
     0
 10
110.52616059064099829
 20
-236.23438142935486894
  1
\f.SF NS Text|i0|b1;\H2.33667;VICTOR\~STREET
 50
290.41391339086658263
 41
21.55190820183410594
 71
     7
  7
STANDARD
  0
MTEXT
  5
119
100
AcDbEntity
100
AcDbMText
  8
CM_Street_Names_translate
420
     0
 10
159.15590948049418785
 20
109.56106175393875901
  1
\f.SF NS Text|i0|b1;\H2.33667;DAISY\~STREET
 50
21.59563121509003736
 41
19.5552240822593113
 71
     7
  7
STANDARD
  0
MTEXT
  5
11a
100
AcDbEntity
100
AcDbMText
  8
CM_Street_Names_translate
420
     0
 10
139.72295439955709639
 20
208.9223803516748319
  1
\f.SF NS Text|i0|b1;\H2.33667;TULIP\~STREET
 50
21.48587023627155546
 41
19.06628662701035992
 71
     7
  7
STANDARD
  0
MTEXT
  5
11b
100
AcDbEntity
100
AcDbMText
  8
CM_Street_Names_translate
420
     0
 10
169.53948034480964679
 20
59.979340700640428
  1
\f.SF NS Text|i0|b1;\H2.33667;WATTLE\~LANE
 50
21.71132612483134139
 41
19.00715930684071608
 71
     7
  7
STANDARD
  0
MTEXT
  5
11c
100
AcDbEntity
100
AcDbMText
  8
CM_Street_Names_translate
420
     0
 10
-238.30417455586410824
 20
223.92954575440126064
  1
\f.SF NS Text|i0|b1;\H2.33667;VIEW\~STREET
 50
44.34378778023564394
 41
18.32946925258867665
 71
     7
  7
STANDARD
  0
MTEXT
  5
11d
100
AcDbEntity
100
AcDbMText
  8
CM_Street_Names_translate
420
     0
 10
79.59869491429496691
 20
-87.24712159045583348
  1
\f.SF NS Text|i0|b1;\H2.33667;HELP\~STREET
 50
21.17988218733762196
 41
18.27716431551553455
 71
     7
  7
STANDARD
  0
MTEXT
  5
11e
100
AcDbEntity
100
AcDbMText
  8
CM_Street_Names_translate
420
     0
 10
-163.35265494614765203
 20
-181.77490779343364125
  1
\f.SF NS Text|i0|b1;\H2.33667;HELP\~STREET
 50
22.39637149227997881
 41
18.27716431551553455
 71
     7
  7
STANDARD
  0
MTEXT
  5
11f
100
AcDbEntity
100
AcDbMText
  8
CM_Street_Names_translate
420
     0
 10
20.47769955638392503
 20
-128.98614894958367927
  1
\f.SF NS Text|i0|b1;\H2.33667;HELP\~STREET
 50
53.71720590352631319
 41
18.27716431551553455
 71
     7
  7
STANDARD
  0
MTEXT
  5
120
100
AcDbEntity
100
AcDbMText
  8
CM_Street_Names_translate
420
     0
 10
-32.25046559568617965
 20
-139.82001847910476044
  1
\f.SF NS Text|i0|b1;\H2.33667;HELP\~STREET
 50
0.70761009756337934
 41
18.27716431551553455
 71
     7
  7
STANDARD
  0
MTEXT
  5
121
100
AcDbEntity
100
AcDbMText
  8
CM_Street_Names_translate
420
     0
 10
213.78082309049301557
 20
22.04300354195625289
  1
\f.SF NS Text|i0|b1;\H2.33667;KIRK\~STREET
 50
21.54740713731300161
 41
17.5858294950705023
 71
     7
  7
STANDARD
  0
MTEXT
  5
122
100
AcDbEntity
100
AcDbMText
  8
CM_Street_Names_translate
420
     0
 10
63.01751220309010648
 20
232.14853711146452042
  1
\f.SF NS Text|i0|b1;\H2.33667;ZINNIA\~LANE
 50
21.191452878064446
 41
17.44710770544172718
 71
     7
  7
STANDARD
  0
MTEXT
  5
123
100
AcDbEntity
100
AcDbMText
  8
CM_Street_Names_translate
420
     0
 10
-128.93274097780593479
 20
-1.93373242329284545
  1
\f.SF NS Text|i0|b1;\H2.33667;DAY\~STREET
 50
22.84560523054993553
 41
16.72166096951421466
 71
     7
  7
STANDARD
  0
MTEXT
  5
124
100
AcDbEntity
100
AcDbMText
  8
CM_Street_Names_translate
420
     0
 10
51.17916707330910953
 20
67.13185747706502582
  1
\f.SF NS Text|i0|b1;\H2.33667;DAY\~STREET
 50
21.15926501949611094
 41
16.72166096951421466
 71
     7
  7
STANDARD
  0
MTEXT
  5
125
100
AcDbEntity
100
AcDbMText
  8
CM_Street_Names_translate
420
     0
 10
-184.26969164737562323
 20
139.69374478268906614
  1
\f.SF NS Text|i0|b1;\H2.33667;VIEW\~LANE
 50
72.75498439837612352
 41
15.12749745263274193
 71
     7
  7
STANDARD
  0
MTEXT
  5
126
100
AcDbEntity
100
AcDbMText
  8
CM_Street_Names_translate
420
     0
 10
-237.73703022166441201
 20
15.45432290901422867
  1
\f.SF NS Text|i0|b1;\H2.33667;VIEW\~LANE
 50
57.50203257543736868
 41
15.12749745263274193
 71
     7
  7
STANDARD
  0
MTEXT
  5
127
100
AcDbEntity
100
AcDbMText
  8
CM_Street_Names_translate
420
     0
 10
152.15250740006879937
 20
160.87377545528900669
  1
\f.SF NS Text|i0|b1;\H2.33667;IRIS\~LANE
 50
21.41125279737804732
 41
13.14673222694976928
 71
     7
  7
STANDARD
  0
ENDSEC
  0
SECTION
  2
OBJECTS
  0
DICTIONARY
  5
C
330
0
100
AcDbDictionary
281
     1
  3
ACAD_GROUP
350
D
  3
ACAD_LAYOUT
350
1A
  3
ACAD_MLEADERSTYLE
350
43
  3
ACAD_MLINESTYLE
350
17
  3
ACAD_PLOTSETTINGS
350
19
  3
ACAD_PLOTSTYLENAME
350
E
  3
ACAD_TABLESTYLE
350
42
  3
ACAD_VISUALSTYLE
350
2A
  0
DICTIONARY
  5
D
102
{ACAD_REACTORS
330
C
102
}
330
C
100
AcDbDictionary
281
     1
  0
DICTIONARY
  5
1A
102
{ACAD_REACTORS
330
C
102
}
330
C
100
AcDbDictionary
281
     1
  3
Layout1
350
1E
  3
Layout2
350
26
  3
Model
350
22
  0
DICTIONARY
  5
43
102
{ACAD_REACTORS
330
C
102
}
330
C
100
AcDbDictionary
281
     1
  0
DICTIONARY
  5
17
102
{ACAD_REACTORS
330
C
102
}
330
C
100
AcDbDictionary
281
     1
  3
Standard
350
18
  0
DICTIONARY
  5
19
102
{ACAD_REACTORS
330
C
102
}
330
C
100
AcDbDictionary
281
     1
  0
ACDBDICTIONARYWDFLT
  5
E
102
{ACAD_REACTORS
330
C
102
}
330
C
100
AcDbDictionary
281
     1
  3
Normal
350
F
100
AcDbDictionaryWithDefault
340
F
  0
DICTIONARY
  5
42
102
{ACAD_REACTORS
330
C
102
}
330
C
100
AcDbDictionary
281
     1
  0
DICTIONARY
  5
2A
102
{ACAD_REACTORS
330
C
102
}
330
C
100
AcDbDictionary
281
     1
  3
2dWireframe
350
2F
  3
3D Hidden
350
31
  3
3dWireframe
350
30
  3
Basic
350
32
  3
Brighten
350
36
  3
ColorChange
350
3A
  3
Conceptual
350
34
  3
Dim
350
35
  3
Facepattern
350
39
  3
Flat
350
2B
  3
FlatWithEdges
350
2C
  3
Gouraud
350
2D
  3
GouraudWithEdges
350
2E
  3
Linepattern
350
38
  3
Realistic
350
33
  3
Thicken
350
37
  0
LAYOUT
  5
1E
102
{ACAD_REACTORS
330
1A
102
}
330
1A
100
AcDbPlotSettings
  1

  2
none_device
  4

  6

 40
0.0
 41
0.0
 42
0.0
 43
0.0
 44
0.0
 45
0.0
 46
0.0
 47
0.0
 48
0.0
 49
0.0
140
0.0
141
0.0
142
1.0
143
1.0
 70
   688
 72
     0
 73
     0
 74
     5
  7

 75
    16
 76
     0
 77
     2
 78
   300
147
1.0
148
0.0
149
0.0
100
AcDbLayout
  1
Layout1
 70
     1
 71
     1
 10
0.0
 20
0.0
 11
12.0
 21
9.0
 12
0.0
 22
0.0
 32
0.0
 14
1.000000000000000E+20
 24
1.000000000000000E+20
 34
1.000000000000000E+20
 15
-1.000000000000000E+20
 25
-1.000000000000000E+20
 35
-1.000000000000000E+20
146
0.0
 13
0.0
 23
0.0
 33
0.0
 16
1.0
 26
0.0
 36
0.0
 17
0.0
 27
1.0
 37
0.0
 76
     0
330
1B
  0
LAYOUT
  5
26
102
{ACAD_REACTORS
330
1A
102
}
330
1A
100
AcDbPlotSettings
  1

  2
none_device
  4

  6

 40
0.0
 41
0.0
 42
0.0
 43
0.0
 44
0.0
 45
0.0
 46
0.0
 47
0.0
 48
0.0
 49
0.0
140
0.0
141
0.0
142
1.0
143
1.0
 70
   688
 72
     0
 73
     0
 74
     5
  7

 75
    16
 76
     0
 77
     2
 78
   300
147
1.0
148
0.0
149
0.0
100
AcDbLayout
  1
Layout2
 70
     1
 71
     2
 10
0.0
 20
0.0
 11
0.0
 21
0.0
 12
0.0
 22
0.0
 32
0.0
 14
0.0
 24
0.0
 34
0.0
 15
0.0
 25
0.0
 35
0.0
146
0.0
 13
0.0
 23
0.0
 33
0.0
 16
1.0
 26
0.0
 36
0.0
 17
0.0
 27
1.0
 37
0.0
 76
     0
330
23
  0
LAYOUT
  5
22
102
{ACAD_REACTORS
330
1A
102
}
330
1A
100
AcDbPlotSettings
  1

  2
none_device
  4

  6

 40
0.0
 41
0.0
 42
0.0
 43
0.0
 44
0.0
 45
0.0
 46
0.0
 47
0.0
 48
0.0
 49
0.0
140
0.0
141
0.0
142
1.0
143
1.0
 70
  1712
 72
     0
 73
     0
 74
     0
  7

 75
     0
 76
     0
 77
     2
 78
   300
147
1.0
148
0.0
149
0.0
100
AcDbLayout
  1
Model
 70
     1
 71
     0
 10
0.0
 20
0.0
 11
12.0
 21
9.0
 12
0.0
 22
0.0
 32
0.0
 14
30.0
 24
49.75
 34
0.0
 15
130.5
 25
163.1318914119703
 35
0.0
146
0.0
 13
0.0
 23
0.0
 33
0.0
 16
1.0
 26
0.0
 36
0.0
 17
0.0
 27
1.0
 37
0.0
 76
     0
330
1F
331
29
  0
MLINESTYLE
  5
18
102
{ACAD_REACTORS
330
17
102
}
330
17
100
AcDbMlineStyle
  2
Standard
 70
     0
  3

 62
   256
 51
90.0
 52
90.0
 71
     2
 49
0.5
 62
   256
  6
BYLAYER
 49
-0.5
 62
   256
  6
BYLAYER
  0
ACDBPLACEHOLDER
  5
F
102
{ACAD_REACTORS
330
E
102
}
330
E
  0
VISUALSTYLE
  5
2F
102
{ACAD_REACTORS
330
2A
102
}
330
2A
100
AcDbVisualStyle
  2
2dWireframe
 70
     4
 71
     0
 72
     2
 73
     0
 90
        0
 40
-0.6
 41
-30.0
 62
     5
 63
     7
421
 16777215
 74
     1
 91
        4
 64
     7
 65
   257
 75
     1
175
     1
 42
1.0
 92
        0
 66
   257
 43
1.0
 76
     1
 77
     6
 78
     2
 67
     7
 79
     5
170
     0
171
     0
290
     0
174
     0
 93
        1
 44
0.0
173
     0
291
     0
 45
0.0
1001
ACAD
1000
AcDbSavedByObjectVersion
1070
     0
  0
VISUALSTYLE
  5
31
102
{ACAD_REACTORS
330
2A
102
}
330
2A
100
AcDbVisualStyle
  2
3D Hidden
 70
     6
 71
     1
 72
     2
 73
     2
 90
        0
 40
-0.6
 41
-30.0
 62
     5
 63
     7
421
 16777215
 74
     2
 91
        2
 64
     7
 65
   257
 75
     2
175
     1
 42
40.0
 92
        0
 66
   257
 43
1.0
 76
     1
 77
     6
 78
     2
 67
     7
 79
     3
170
     0
171
     0
290
     0
174
     0
 93
        1
 44
0.0
173
     0
291
     0
 45
0.0
1001
ACAD
1000
AcDbSavedByObjectVersion
1070
     0
  0
VISUALSTYLE
  5
30
102
{ACAD_REACTORS
330
2A
102
}
330
2A
100
AcDbVisualStyle
  2
3dWireframe
 70
     5
 71
     0
 72
     2
 73
     0
 90
        0
 40
-0.6
 41
-30.0
 62
     5
 63
     7
421
 16777215
 74
     1
 91
        4
 64
     7
 65
   257
 75
     1
175
     1
 42
1.0
 92
        0
 66
   257
 43
1.0
 76
     1
 77
     6
 78
     2
 67
     7
 79
     5
170
     0
171
     0
290
     0
174
     0
 93
        1
 44
0.0
173
     0
291
     0
 45
0.0
1001
ACAD
1000
AcDbSavedByObjectVersion
1070
     0
  0
VISUALSTYLE
  5
32
102
{ACAD_REACTORS
330
2A
102
}
330
2A
100
AcDbVisualStyle
  2
Basic
 70
     7
 71
     1
 72
     0
 73
     1
 90
        0
 40
-0.6
 41
-30.0
 62
     5
 63
     7
421
 16777215
 74
     0
 91
        4
 64
     7
 65
   257
 75
     1
175
     1
 42
1.0
 92
        8
 66
     7
 43
1.0
 76
     1
 77
     6
 78
     2
 67
     7
 79
     5
170
     0
171
     0
290
     0
174
     0
 93
        1
 44
0.0
173
     0
291
     1
 45
0.0
1001
ACAD
1000
AcDbSavedByObjectVersion
1070
     0
  0
VISUALSTYLE
  5
36
102
{ACAD_REACTORS
330
2A
102
}
330
2A
100
AcDbVisualStyle
  2
Brighten
 70
    12
 71
     2
 72
     2
 73
     0
 90
        0
 40
-0.6
 41
-30.0
 62
     5
 63
     7
421
 16777215
 74
     1
 91
        4
 64
     7
 65
   257
 75
     1
175
     1
 42
1.0
 92
        8
 66
     7
 43
1.0
 76
     1
 77
     6
 78
     2
 67
     7
 79
     5
170
     0
171
     0
290
     0
174
     0
 93
        1
 44
50.0
173
     0
291
     1
 45
0.0
1001
ACAD
1000
AcDbSavedByObjectVersion
1070
     0
  0
VISUALSTYLE
  5
3A
102
{ACAD_REACTORS
330
2A
102
}
330
2A
100
AcDbVisualStyle
  2
ColorChange
 70
    16
 71
     2
 72
     2
 73
     3
 90
        0
 40
-0.6
 41
-30.0
 62
     5
 63
     8
421
  8421504
 74
     1
 91
        4
 64
     7
 65
   257
 75
     1
175
     1
 42
1.0
 92
        8
 66
     8
424
  8421504
 43
1.0
 76
     1
 77
     6
 78
     2
 67
     7
 79
     5
170
     0
171
     0
290
     0
174
     0
 93
        1
 44
0.0
173
     0
291
     1
 45
0.0
1001
ACAD
1000
AcDbSavedByObjectVersion
1070
     0
  0
VISUALSTYLE
  5
34
102
{ACAD_REACTORS
330
2A
102
}
330
2A
100
AcDbVisualStyle
  2
Conceptual
 70
     9
 71
     3
 72
     2
 73
     0
 90
        0
 40
-0.6
 41
-30.0
 62
     5
 63
     7
421
 16777215
 74
     2
 91
        2
 64
     7
 65
   257
 75
     1
175
     1
 42
40.0
 92
        8
 66
     7
 43
1.0
 76
     1
 77
     6
 78
     2
 67
     7
 79
     3
170
     0
171
     0
290
     0
174
     0
 93
        1
 44
0.0
173
     0
291
     0
 45
0.0
1001
ACAD
1000
AcDbSavedByObjectVersion
1070
     0
  0
VISUALSTYLE
  5
35
102
{ACAD_REACTORS
330
2A
102
}
330
2A
100
AcDbVisualStyle
  2
Dim
 70
    11
 71
     2
 72
     2
 73
     0
 90
        0
 40
-0.6
 41
-30.0
 62
     5
 63
     7
421
 16777215
 74
     1
 91
        4
 64
     7
 65
   257
 75
     1
175
     1
 42
1.0
 92
        8
 66
     7
 43
1.0
 76
     1
 77
     6
 78
     2
 67
     7
 79
     5
170
     0
171
     0
290
     0
174
     0
 93
        1
 44
-50.0
173
     0
291
     1
 45
0.0
1001
ACAD
1000
AcDbSavedByObjectVersion
1070
     0
  0
VISUALSTYLE
  5
39
102
{ACAD_REACTORS
330
2A
102
}
330
2A
100
AcDbVisualStyle
  2
Facepattern
 70
    15
 71
     2
 72
     2
 73
     0
 90
        0
 40
-0.6
 41
-30.0
 62
     5
 63
     7
421
 16777215
 74
     1
 91
        4
 64
     7
 65
   257
 75
     1
175
     1
 42
1.0
 92
        8
 66
     7
 43
1.0
 76
     1
 77
     6
 78
     2
 67
     7
 79
     5
170
     0
171
     0
290
     0
174
     0
 93
        1
 44
0.0
173
     0
291
     1
 45
0.0
1001
ACAD
1000
AcDbSavedByObjectVersion
1070
     0
  0
VISUALSTYLE
  5
2B
102
{ACAD_REACTORS
330
2A
102
}
330
2A
100
AcDbVisualStyle
  2
Flat
 70
     0
 71
     2
 72
     1
 73
     1
 90
        2
 40
-0.6
 41
30.0
 62
     5
 63
     7
421
 16777215
 74
     0
 91
        4
 64
     7
 65
   257
 75
     1
175
     1
 42
1.0
 92
        8
 66
     7
 43
1.0
 76
     1
 77
     6
 78
     2
 67
     7
 79
     5
170
     0
171
     0
290
     0
174
     0
 93
       13
 44
0.0
173
     0
291
     1
 45
0.0
1001
ACAD
1000
AcDbSavedByObjectVersion
1070
     0
  0
VISUALSTYLE
  5
2C
102
{ACAD_REACTORS
330
2A
102
}
330
2A
100
AcDbVisualStyle
  2
FlatWithEdges
 70
     1
 71
     2
 72
     1
 73
     1
 90
        2
 40
-0.6
 41
30.0
 62
     5
 63
     7
421
 16777215
 74
     1
 91
        4
 64
     7
 65
   257
 75
     1
175
     1
 42
1.0
 92
        0
 66
   257
 43
1.0
 76
     1
 77
     6
 78
     2
 67
     7
 79
     5
170
     0
171
     0
290
     0
174
     0
 93
       13
 44
0.0
173
     0
291
     1
 45
0.0
1001
ACAD
1000
AcDbSavedByObjectVersion
1070
     0
  0
VISUALSTYLE
  5
2D
102
{ACAD_REACTORS
330
2A
102
}
330
2A
100
AcDbVisualStyle
  2
Gouraud
 70
     2
 71
     2
 72
     2
 73
     1
 90
        2
 40
-0.6
 41
30.0
 62
     5
 63
     7
421
 16777215
 74
     0
 91
        4
 64
     7
 65
   257
 75
     1
175
     1
 42
1.0
 92
        0
 66
     7
 43
1.0
 76
     1
 77
     6
 78
     2
 67
     7
 79
     5
170
     0
171
     0
290
     0
174
     0
 93
       13
 44
0.0
173
     0
291
     1
 45
0.0
1001
ACAD
1000
AcDbSavedByObjectVersion
1070
     0
  0
VISUALSTYLE
  5
2E
102
{ACAD_REACTORS
330
2A
102
}
330
2A
100
AcDbVisualStyle
  2
GouraudWithEdges
 70
     3
 71
     2
 72
     2
 73
     1
 90
        2
 40
-0.6
 41
30.0
 62
     5
 63
     7
421
 16777215
 74
     1
 91
        4
 64
     7
 65
   257
 75
     1
175
     1
 42
1.0
 92
        0
 66
   257
 43
1.0
 76
     1
 77
     6
 78
     2
 67
     7
 79
     5
170
     0
171
     0
290
     0
174
     0
 93
       13
 44
0.0
173
     0
291
     1
 45
0.0
1001
ACAD
1000
AcDbSavedByObjectVersion
1070
     0
  0
VISUALSTYLE
  5
38
102
{ACAD_REACTORS
330
2A
102
}
330
2A
100
AcDbVisualStyle
  2
Linepattern
 70
    14
 71
     2
 72
     2
 73
     0
 90
        0
 40
-0.6
 41
-30.0
 62
     5
 63
     7
421
 16777215
 74
     1
 91
        4
 64
     7
 65
   257
 75
     7
175
     7
 42
1.0
 92
        8
 66
     7
 43
1.0
 76
     1
 77
     6
 78
     2
 67
     7
 79
     5
170
     0
171
     0
290
     0
174
     0
 93
        1
 44
0.0
173
     0
291
     1
 45
0.0
1001
ACAD
1000
AcDbSavedByObjectVersion
1070
     0
  0
VISUALSTYLE
  5
33
102
{ACAD_REACTORS
330
2A
102
}
330
2A
100
AcDbVisualStyle
  2
Realistic
 70
     8
 71
     2
 72
     2
 73
     0
 90
        0
 40
-0.6
 41
-30.0
 62
     5
 63
     7
421
 16777215
 74
     1
 91
        0
 64
     7
 65
   257
 75
     1
175
     1
 42
1.0
 92
        8
 66
     8
424
  7895160
 43
1.0
 76
     1
 77
     6
 78
     2
 67
     7
 79
     5
170
     0
171
     0
290
     0
174
     0
 93
       13
 44
0.0
173
     0
291
     0
 45
0.0
1001
ACAD
1000
AcDbSavedByObjectVersion
1070
     0
  0
VISUALSTYLE
  5
37
102
{ACAD_REACTORS
330
2A
102
}
330
2A
100
AcDbVisualStyle
  2
Thicken
 70
    13
 71
     2
 72
     2
 73
     0
 90
        0
 40
-0.6
 41
-30.0
 62
     5
 63
     7
421
 16777215
 74
     1
 91
        4
 64
     7
 65
   257
 75
     1
175
     1
 42
1.0
 92
       12
 66
     7
 43
1.0
 76
     1
 77
     6
 78
     2
 67
     7
 79
     5
170
     0
171
     0
290
     0
174
     0
 93
        1
 44
0.0
173
     0
291
     1
 45
0.0
1001
ACAD
1000
AcDbSavedByObjectVersion
1070
     0
  0
ENDSEC
  0
EOF
